  0
SECTION
  2
ENTITIES
  0
ARC
  8
0
 10
5403.86
 20
2309.429
 30
0.0
 40
285.5167
 50
122.63
 51
163.7138
  0
ARC
  8
0
 10
5050.76
 20
2440.357
 30
0.0
 40
93.98382
 50
300.5148
 51
327.244
  0
ARC
  8
0
 10
5146.206
 20
2278.422
 30
0.0
 40
93.98382
 50
120.5148
 51
147.244
  0
ARC
  8
0
 10
4793.105
 20
2409.339
 30
0.0
 40
285.5167
 50
302.6299
 51
343.7137
  0
ARC
  8
0
 10
4893.307
 20
2076.15
 30
0.0
 40
107.1863
 50
245.7961
 51
59.90462
  0
ARC
  8
0
 10
4805.426
 20
1880.627
 30
0.0
 40
107.1863
 50
65.79606
 51
239.9046
  0
ARC
  8
0
 10
4805.426
 20
1695.149
 30
0.0
 40
107.1863
 50
120.0954
 51
294.2039
  0
ARC
  8
0
 10
4893.307
 20
1499.626
 30
0.0
 40
107.1863
 50
300.0954
 51
114.204
  0
ARC
  8
0
 10
4793.105
 20
1166.426
 30
0.0
 40
285.5167
 50
16.28621
 51
57.37008
  0
ARC
  8
0
 10
5146.206
 20
1297.355
 30
0.0
 40
93.98382
 50
212.756
 51
239.4852
  0
ARC
  8
0
 10
5050.76
 20
1135.419
 30
0.0
 40
93.98382
 50
32.75599
 51
59.48521
  0
ARC
  8
0
 10
5403.86
 20
1266.337
 30
0.0
 40
285.5167
 50
196.2862
 51
237.3701
  0
CIRCLE
  8
0
 10
1000
 20
7000
 30
0.0
 40
100
  0
CIRCLE
  8
0
 10
1000
 20
8000
 30
0.0
 40
100
  0
CIRCLE
  8
0
 10
1500
 20
7000
 30
0.0
 40
100
  0
CIRCLE
  8
0
 10
1500
 20
8000
 30
0.0
 40
100
  0
CIRCLE
  8
0
 10
2000
 20
7000
 30
0.0
 40
100
  0
CIRCLE
  8
0
 10
2000
 20
8000
 30
0.0
 40
100
  0
CIRCLE
  8
0
 10
100
 20
100
 30
0.0
 40
125
  0
CIRCLE
  8
0
 10
200
 20
200
 30
0.0
 40
200
  0
CIRCLE
  8
0
 10
300
 20
300
 30
0.0
 40
200
  0
CIRCLE
  8
0
 10
350
 20
350
 30
0.0
 40
200
  0
CIRCLE
  8
0
 10
360
 20
360
 30
0.0
 40
200
  0
CIRCLE
  8
0
 10
370
 20
370
 30
0.0
 40
200
  0
ENDSEC
  0
EOF
