  0
SECTION
  2
ENTITIES
  0
LINE
  8
0
 10
5123.603
 20
1997.794
 30
0.0
 11
4923.603
 21
1616.793
 31
0.0
  0
LINE
  8
0
 10
4923.603
 20
1616.793
 30
0.0
 11
5123.603
 21
1235.793
 31
0.0
  0
LINE
  8
0
 10
5123.603
 20
1235.793
 30
0.0
 11
4742.602
 21
1035.793
 31
0.0
  0
LINE
  8
0
 10
4742.602
 20
1035.793
 30
0.0
 11
4361.601
 21
1235.793
 31
0.0
  0
LINE
  8
0
 10
4361.601
 20
1235.793
 30
0.0
 11
4561.601
 21
854.7933
 31
0.0
  0
LINE
  8
0
 10
4561.601
 20
854.7933
 30
0.0
 11
4361.601
 21
473.7936
 31
0.0
  0
LINE
  8
0
 10
4361.601
 20
473.7936
 30
0.0
 11
4742.602
 21
673.7936
 31
0.0
  0
LINE
  8
0
 10
4742.602
 20
673.7936
 30
0.0
 11
5123.603
 21
473.7936
 31
0.0
  0
CIRCLE
  8
0
 10
1000
 20
7000
 30
0.0
 40
100
  0
CIRCLE
  8
0
 10
1000
 20
8000
 30
0.0
 40
100
  0
CIRCLE
  8
0
 10
2500
 20
7000
 30
0.0
 40
100
  0
CIRCLE
  8
0
 10
2500
 20
8000
 30
0.0
 40
100
  0
CIRCLE
  8
0
 10
100
 20
100
 30
0.0
 40
125
  0
CIRCLE
  8
0
 10
200
 20
200
 30
0.0
 40
200
  0
CIRCLE
  8
0
 10
300
 20
300
 30
0.0
 40
200
  0
CIRCLE
  8
0
 10
350
 20
350
 30
0.0
 40
200
  0
CIRCLE
  8
0
 10
360
 20
360
 30
0.0
 40
200
  0
CIRCLE
  8
0
 10
370
 20
370
 30
0.0
 40
200
  0
ENDSEC
  0
EOF
