  0
SECTION
  2
ENTITIES
  0
ARC
  8
0
 10
5181.91
 20
1822.339
 30
0.0
 40
317.4186
 50
19.88904
 51
70.11095
  0
ARC
  8
0
 10
5437.701
 20
1873.24
 30
0.0
 40
71.27913
 50
53.20765
 51
158.8829
  0
ARC
  8
0
 10
5312.862
 20
1893.62
 30
0.0
 40
58.5926
 50
264.8112
 51
5.188792
  0
ARC
  8
0
 10
5331.402
 20
1840.71
 30
0.0
 40
24.44829
 50
192.8517
 51
289.0899
  0
ARC
  8
0
 10
5375.572
 20
1739.94
 30
0.0
 40
85.67216
 50
114.9764
 51
180.0812
  0
ARC
  8
0
 10
5290.021
 20
1825.5
 30
0.0
 40
85.67216
 50
269.9188
 51
335.0236
  0
ARC
  8
0
 10
5390.782
 20
1781.33
 30
0.0
 40
24.44829
 50
160.9101
 51
257.1483
  0
ARC
  8
0
 10
5443.692
 20
1762.79
 30
0.0
 40
58.5926
 50
84.81123
 51
185.1888
  0
ARC
  8
0
 10
5423.312
 20
1887.63
 30
0.0
 40
71.27913
 50
291.1172
 51
36.79235
  0
ARC
  8
0
 10
5778.878
 20
2038.31
 30
0.0
 40
317.4186
 50
199.889
 51
250.1109
  0
ARC
  8
0
 10
5372.408
 20
1847.809
 30
0.0
 40
317.4186
 50
289.8891
 51
340.111
  0
ARC
  8
0
 10
5537.481
 20
1506.63
 30
0.0
 40
71.27913
 50
143.2076
 51
248.8829
  0
ARC
  8
0
 10
5517.101
 20
1381.79
 30
0.0
 40
58.5926
 50
354.8112
 51
95.18882
  0
ARC
  8
0
 10
5570.011
 20
1400.33
 30
0.0
 40
24.44829
 50
282.8517
 51
19.08991
  0
ARC
  8
0
 10
5670.768
 20
1444.5
 30
0.0
 40
85.67216
 50
204.9764
 51
270.0812
  0
ARC
  8
0
 10
5585.221
 20
1358.94
 30
0.0
 40
85.67216
 50
359.9188
 51
65.0236
  0
ARC
  8
0
 10
5629.391
 20
1459.71
 30
0.0
 40
24.44829
 50
250.9101
 51
347.1483
  0
ARC
  8
0
 10
5647.931
 20
1512.62
 30
0.0
 40
58.5926
 50
174.8112
 51
275.1888
  0
ARC
  8
0
 10
5523.082
 20
1492.24
 30
0.0
 40
71.27913
 50
21.11715
 51
126.7923
  0
ARC
  8
0
 10
5588.38
 20
1250.841
 30
0.0
 40
317.4186
 50
109.889
 51
160.1109
  0
ARC
  8
0
 10
4991.412
 20
1466.81
 30
0.0
 40
317.4186
 50
289.8891
 51
340.111
  0
ARC
  8
0
 10
5042.311
 20
1211.01
 30
0.0
 40
71.27913
 50
323.2076
 51
68.88287
  0
ARC
  8
0
 10
5062.691
 20
1335.86
 30
0.0
 40
58.5926
 50
174.8112
 51
275.1888
  0
ARC
  8
0
 10
5009.781
 20
1317.32
 30
0.0
 40
24.44829
 50
102.8517
 51
199.0899
  0
ARC
  8
0
 10
4909.01
 20
1273.15
 30
0.0
 40
85.67216
 50
24.97638
 51
90.08124
  0
ARC
  8
0
 10
4994.571
 20
1358.699
 30
0.0
 40
85.67216
 50
179.9187
 51
245.0236
  0
ARC
  8
0
 10
4950.401
 20
1257.94
 30
0.0
 40
24.44829
 50
70.91012
 51
167.1482
  0
ARC
  8
0
 10
4931.861
 20
1205.02
 30
0.0
 40
58.5926
 50
354.8112
 51
95.18882
  0
ARC
  8
0
 10
5056.71
 20
1225.4
 30
0.0
 40
71.27913
 50
201.1172
 51
306.7924
  0
ARC
  8
0
 10
5207.379
 20
869.8397
 30
0.0
 40
317.4186
 50
109.889
 51
160.1109
  0
ARC
  8
0
 10
4800.909
 20
679.3404
 30
0.0
 40
317.4186
 50
19.88904
 51
70.11095
  0
ARC
  8
0
 10
5142.33
 20
844.41
 30
0.0
 40
71.27913
 50
233.2076
 51
338.8828
  0
ARC
  8
0
 10
5267.169
 20
824.0206
 30
0.0
 40
58.5926
 50
84.81123
 51
185.1888
  0
ARC
  8
0
 10
5248.629
 20
876.9405
 30
0.0
 40
24.44829
 50
12.85173
 51
109.0899
  0
ARC
  8
0
 10
5204.459
 20
977.6998
 30
0.0
 40
85.67216
 50
294.9764
 51
8.123402E-02
  0
ARC
  8
0
 10
5290.021
 20
892.1505
 30
0.0
 40
85.67216
 50
89.91875
 51
155.0237
  0
ARC
  8
0
 10
5189.249
 20
936.3204
 30
0.0
 40
24.44829
 50
340.9101
 51
77.14825
  0
ARC
  8
0
 10
5136.339
 20
954.8604
 30
0.0
 40
58.5926
 50
264.8112
 51
5.188792
  0
ARC
  8
0
 10
5156.72
 20
830.0106
 30
0.0
 40
71.27913
 50
111.1172
 51
216.7924
  0
ARC
  8
0
 10
5397.882
 20
895.3096
 30
0.0
 40
317.4186
 50
199.889
 51
250.1109
  0
CIRCLE
  8
0
 10
1000
 20
7000
 30
0.0
 40
100
  0
CIRCLE
  8
0
 10
1000
 20
8000
 30
0.0
 40
100
  0
CIRCLE
  8
0
 10
2500
 20
7000
 30
0.0
 40
100
  0
CIRCLE
  8
0
 10
2500
 20
8000
 30
0.0
 40
100
  0
CIRCLE
  8
0
 10
100
 20
100
 30
0.0
 40
125
  0
CIRCLE
  8
0
 10
200
 20
200
 30
0.0
 40
200
  0
CIRCLE
  8
0
 10
300
 20
300
 30
0.0
 40
200
  0
CIRCLE
  8
0
 10
350
 20
350
 30
0.0
 40
200
  0
CIRCLE
  8
0
 10
360
 20
360
 30
0.0
 40
200
  0
CIRCLE
  8
0
 10
370
 20
370
 30
0.0
 40
200
  0
ENDSEC
  0
EOF
