  0
SECTION
  2
ENTITIES
  0
LINE
  8
0
 10
381
 20
762
 30
0.0
 11
381
 21
698.5
 31
0.0
  0
LINE
  8
0
 10
381
 20
698.5
 30
0.0
 11
381
 21
635
 31
0.0
  0
ARC
  8
0
 10
400.2686
 20
345.2536
 30
0.0
 40
290.3863
 50
93.80449
 51
129.1333
  0
ARC
  8
0
 10
381
 20
1288.169
 30
0.0
 40
736.1689
 50
257.128
 51
282.872
  0
ARC
  8
0
 10
503.4795
 20
484.1778
 30
0.0
 40
95.78647
 50
15.01849
 51
64.31445
  0
ARC
  8
0
 10
382.25
 20
1701.803
 30
0.0
 40
1211.803
 50
259.8405
 51
280.1595
  0
ARC
  8
0
 10
264.238
 20
421.311
 30
0.0
 40
129.8301
 50
137.5134
 51
169.7109
  0
ARC
  8
0
 10
381
 20
2304.633
 30
0.0
 40
1876.133
 50
262.5119
 51
277.4881
  0
ARC
  8
0
 10
419.8462
 20
382.2115
 30
0.0
 40
214.1653
 50
359.4083
 51
18.45286
  0
LINE
  8
0
 10
635
 20
381
 30
0.0
 11
571.5
 21
381
 31
0.0
  0
LINE
  8
0
 10
571.5
 20
381
 30
0.0
 11
508
 21
381
 31
0.0
  0
LINE
  8
0
 10
508
 20
381
 30
0.0
 11
444.5
 21
381
 31
0.0
  0
LINE
  8
0
 10
444.5
 20
381
 30
0.0
 11
381
 21
381
 31
0.0
  0
LINE
  8
0
 10
381
 20
381
 30
0.0
 11
317.5
 21
381
 31
0.0
  0
LINE
  8
0
 10
317.5
 20
381
 30
0.0
 11
254
 21
381
 31
0.0
  0
LINE
  8
0
 10
254
 20
381
 30
0.0
 11
190.5
 21
381
 31
0.0
  0
LINE
  8
0
 10
190.5
 20
381
 30
0.0
 11
127
 21
381
 31
0.0
  0
ARC
  8
0
 10
597.165
 20
414.5125
 30
0.0
 40
472.3202
 50
184.0079
 51
191.6048
  0
ARC
  8
0
 10
382.5
 20
-1264.467
 30
0.0
 40
1601.968
 50
81.16669
 51
98.83329
  0
ARC
  8
0
 10
554.2419
 20
306.9706
 30
0.0
 40
69.34826
 50
310.196
 51
7.480875
  0
ARC
  8
0
 10
371.7169
 20
-1093.643
 30
0.0
 40
1366.674
 50
80.42706
 51
98.78447
  0
ARC
  8
0
 10
478.3244
 20
458.8423
 30
0.0
 40
377.0059
 50
212.8208
 51
224.9482
  0
ARC
  8
0
 10
381
 20
-668.3203
 30
0.0
 40
874.3203
 50
79.02194
 51
100.978
  0
ARC
  8
0
 10
395.3636
 20
337.9089
 30
0.0
 40
210.3998
 50
266.0854
 51
315.3322
  0
LINE
  8
0
 10
381
 20
127
 30
0.0
 11
381
 21
63.5
 31
0.0
  0
LINE
  8
0
 10
381
 20
63.5
 30
0.0
 11
381
 21
0
 31
0.0
  0
ARC
  8
0
 10
380.5003
 20
381
 30
0.0
 40
381.0003
 50
89.92493
 51
270.0751
  0
ARC
  8
0
 10
381.4978
 20
381
 30
0.0
 40
381.0003
 50
269.9249
 51
90.07477
  0
CIRCLE
  8
0
 10
1000
 20
7000
 30
0.0
 40
100
  0
CIRCLE
  8
0
 10
2500
 20
7000
 30
0.0
 40
100
  0
CIRCLE
  8
0
 10
100
 20
100
 30
0.0
 40
125
  0
CIRCLE
  8
0
 10
200
 20
200
 30
0.0
 40
200
  0
CIRCLE
  8
0
 10
300
 20
300
 30
0.0
 40
200
  0
CIRCLE
  8
0
 10
350
 20
350
 30
0.0
 40
200
  0
CIRCLE
  8
0
 10
360
 20
360
 30
0.0
 40
200
  0
CIRCLE
  8
0
 10
370
 20
370
 30
0.0
 40
200
  0
ENDSEC
  0
EOF
