  0
SECTION
  2
ENTITIES
  0
ARC
  8
0
 10
805.8874
 20
391.5671
 30
0.0
 40
213.5683
 50
17.84097
 51
54.89223
  0
ARC
  8
0
 10
691.9731
 20
1.275758
 30
0.0
 40
612.5988
 50
67.26604
 51
107.9171
  0
ARC
  8
0
 10
538.7443
 20
494.0676
 30
0.0
 40
96.74086
 50
111.3571
 51
272.0784
  0
ARC
  8
0
 10
444.2149
 20
474.4609
 30
0.0
 40
124.7049
 50
321.8283
 51
61.60756
  0
ARC
  8
0
 10
407.2159
 20
510.0528
 30
0.0
 40
121.5096
 50
37.58354
 51
217.468
  0
ARC
  8
0
 10
287.2622
 20
396.4802
 30
0.0
 40
46.10236
 50
220.4116
 51
59.33624
  0
LINE
  8
0
 10
252.1596
 20
366.5932
 30
0.0
 11
239.678
 21
348.3004
 31
0.0
  0
ARC
  8
0
 10
296.5601
 20
435.0021
 30
0.0
 40
103.6954
 50
236.7325
 51
319.4484
  0
ARC
  8
0
 10
323.464
 20
242.691
 30
0.0
 40
135.2443
 50
314.3879
 51
67.44028
  0
ARC
  8
0
 10
509.3016
 20
294.8647
 30
0.0
 40
174.5604
 50
238.4906
 51
289.3326
  0
ARC
  8
0
 10
681.6412
 20
146.6273
 30
0.0
 40
115.7304
 50
353.3013
 51
188.1869
  0
ARC
  8
0
 10
892.31
 20
388.1598
 30
0.0
 40
272.4066
 50
249.4261
 51
283.4211
  0
ARC
  8
0
 10
415.0661
 20
83.53054
 30
0.0
 40
541.9249
 50
4.197092
 51
14.53716
  0
ARC
  8
0
 10
609.5048
 20
370.561
 30
0.0
 40
363.0317
 50
335.4211
 51
15.39472
  0
ARC
  8
0
 10
985.0906
 20
465.6788
 30
0.0
 40
25.61031
 50
177.1908
 51
340.1895
  0
ARC
  8
0
 10
2644.016
 20
159.4544
 30
0.0
 40
1661.686
 50
169.6848
 51
190.3151
  0
LINE
  8
0
 10
1009.185
 20
-138.0903
 30
0.0
 11
1022.127
 21
-156.0601
 31
0.0
  0
ARC
  8
0
 10
1057.978
 20
-185.0451
 30
0.0
 40
46.10236
 50
302.1203
 51
141.0451
  0
ARC
  8
0
 10
1180.78
 20
-295.532
 30
0.0
 40
121.5096
 50
143.9886
 51
323.873
  0
ARC
  8
0
 10
1216.863
 20
-259.011
 30
0.0
 40
124.7049
 50
299.8489
 51
39.62848
  0
ARC
  8
0
 10
1311.86
 20
-276.2085
 30
0.0
 40
96.74086
 50
89.37839
 51
250.0996
  0
ARC
  8
0
 10
1452.514
 20
220.319
 30
0.0
 40
612.5988
 50
253.5395
 51
294.1905
  0
ARC
  8
0
 10
1576.311
 20
-166.9506
 30
0.0
 40
213.5683
 50
306.5643
 51
343.6155
  0
ARC
  8
0
 10
1757.34
 20
-236.4833
 30
0.0
 40
25.61031
 50
21.2673
 51
184.2659
  0
ARC
  8
0
 10
1379.458
 20
-150.9432
 30
0.0
 40
363.0317
 50
346.0618
 51
26.03575
  0
ARC
  8
0
 10
1177.786
 20
131.0521
 30
0.0
 40
541.9249
 50
346.9194
 51
357.2595
  0
ARC
  8
0
 10
1662.62
 20
-161.3478
 30
0.0
 40
272.4066
 50
78.03571
 51
112.0305
  0
ARC
  8
0
 10
1445.879
 20
74.75181
 30
0.0
 40
115.7304
 50
173.2698
 51
8.155481
  0
ARC
  8
0
 10
1277.364
 20
-77.81818
 30
0.0
 40
174.5604
 50
72.12427
 51
122.9661
  0
ARC
  8
0
 10
1090.26
 20
-30.38545
 30
0.0
 40
135.2443
 50
294.0163
 51
47.06893
  0
ARC
  8
0
 10
1068.252
 20
-223.3181
 30
0.0
 40
103.6954
 50
42.00839
 51
124.7241
  0
ARC
  8
0
 10
814.3469
 20
-220.3852
 30
0.0
 40
211.505
 50
336.4199
 51
22.89801
  0
CIRCLE
  8
0
 10
1000
 20
7000
 30
0.0
 40
100
  0
CIRCLE
  8
0
 10
4000
 20
7000
 30
0.0
 40
100
  0
CIRCLE
  8
0
 10
100
 20
100
 30
0.0
 40
128
  0
CIRCLE
  8
0
 10
200
 20
200
 30
0.0
 40
200
  0
CIRCLE
  8
0
 10
300
 20
300
 30
0.0
 40
200
  0
CIRCLE
  8
0
 10
350
 20
350
 30
0.0
 40
200
  0
CIRCLE
  8
0
 10
360
 20
360
 30
0.0
 40
200
  0
CIRCLE
  8
0
 10
370
 20
370
 30
0.0
 40
200
  0
ENDSEC
  0
EOF
