  0
SECTION
  2
ENTITIES
  0
ARC
  8
0
 10
211.8051
 20
797.4142
 30
0.0
 40
172.8615
 50
283.5604
 51
348.1781
  0
ARC
  8
0
 10
224.2888
 20
657.3156
 30
0.0
 40
39.59143
 50
133.5717
 51
315.1045
  0
ARC
  8
0
 10
225.0464
 20
658.0557
 30
0.0
 40
39.59143
 50
313.5719
 51
135.1046
  0
ARC
  8
0
 10
-369.2718
 20
1008.53
 30
0.0
 40
728.1188
 50
300.4747
 51
328.6182
  0
ARC
  8
0
 10
-99.7978
 20
481.1384
 30
0.0
 40
141.3775
 50
225.0984
 51
314.9025
  0
ARC
  8
0
 10
-99.79681
 20
280.8588
 30
0.0
 40
141.3775
 50
45.09809
 51
134.9023
  0
ARC
  8
0
 10
-100.1404
 20
281.2024
 30
0.0
 40
141.3775
 50
315.0975
 51
44.90199
  0
ARC
  8
0
 10
100.1392
 20
281.2011
 30
0.0
 40
141.3775
 50
135.0974
 51
224.9018
  0
ARC
  8
0
 10
99.79868
 20
280.8594
 30
0.0
 40
141.3775
 50
45.09804
 51
134.9023
  0
ARC
  8
0
 10
99.79853
 20
481.139
 30
0.0
 40
141.3775
 50
225.0979
 51
314.9022
  0
ARC
  8
0
 10
100.1399
 20
480.7976
 30
0.0
 40
141.3775
 50
135.0979
 51
224.9024
  0
ARC
  8
0
 10
-100.1397
 20
480.7976
 30
0.0
 40
141.3775
 50
315.0979
 51
44.90206
  0
ARC
  8
0
 10
-284.8748
 20
-160.7892
 30
0.0
 40
612.1184
 50
28.64278
 51
62.26446
  0
ARC
  8
0
 10
224.6092
 20
104.8721
 30
0.0
 40
39.23202
 50
225.2718
 51
45.03008
  0
ARC
  8
0
 10
224.7265
 20
104.7553
 30
0.0
 40
39.23202
 50
45.27183
 51
225.0302
  0
ARC
  8
0
 10
211.8051
 20
-35.41491
 30
0.0
 40
172.8615
 50
11.82194
 51
76.43967
  0
ARC
  8
0
 10
550.1949
 20
35.41368
 30
0.0
 40
172.8615
 50
191.8219
 51
256.4396
  0
ARC
  8
0
 10
540.5703
 20
-108.779
 30
0.0
 40
39.03904
 50
217.6562
 51
45.36159
  0
ARC
  8
0
 10
537.0934
 20
-104.8505
 30
0.0
 40
39.03904
 50
37.65633
 51
225.3617
  0
ARC
  8
0
 10
1215.093
 20
331.6925
 30
0.0
 40
844.5262
 50
213.3534
 51
237.554
  0
ARC
  8
0
 10
1042.994
 20
-918.8464
 30
0.0
 40
606.8239
 50
117.5844
 51
151.5083
  0
ARC
  8
0
 10
539.2771
 20
-654.1747
 30
0.0
 40
38.62714
 50
140.0481
 51
318.0392
  0
ARC
  8
0
 10
538.3884
 20
-655.1985
 30
0.0
 40
38.62714
 50
320.0506
 51
138.0413
  0
ARC
  8
0
 10
550.1949
 20
-797.4155
 30
0.0
 40
172.8615
 50
103.5604
 51
168.1781
  0
CIRCLE
  8
0
 10
1000
 20
7000
 30
0.0
 40
100
  0
CIRCLE
  8
0
 10
1000
 20
8000
 30
0.0
 40
100
  0
CIRCLE
  8
0
 10
2500
 20
7000
 30
0.0
 40
100
  0
CIRCLE
  8
0
 10
2500
 20
8000
 30
0.0
 40
100
  0
CIRCLE
  8
0
 10
100
 20
100
 30
0.0
 40
130
  0
CIRCLE
  8
0
 10
200
 20
200
 30
0.0
 40
210
  0
CIRCLE
  8
0
 10
300
 20
300
 30
0.0
 40
200
  0
CIRCLE
  8
0
 10
350
 20
350
 30
0.0
 40
200
  0
CIRCLE
  8
0
 10
360
 20
360
 30
0.0
 40
200
  0
CIRCLE
  8
0
 10
370
 20
370
 30
0.0
 40
200
  0
ENDSEC
  0
EOF
