  0
SECTION
  2
ENTITIES
  0
ARC
  8
0
 10
620.9017
 20
1054.884
 30
0.0
 40
119.4091
 50
199.0039
 51
309.9644
  0
ARC
  8
0
 10
807.1387
 20
934.1393
 30
0.0
 40
113.3705
 50
165.062
 51
284.9376
  0
ARC
  8
0
 10
927.8829
 20
747.9017
 30
0.0
 40
119.4091
 50
140.0354
 51
250.9963
  0
ARC
  8
0
 10
927.8829
 20
522.1
 30
0.0
 40
119.4091
 50
109.0039
 51
219.9648
  0
ARC
  8
0
 10
807.1391
 20
335.8622
 30
0.0
 40
113.3705
 50
75.06274
 51
194.9383
  0
ARC
  8
0
 10
620.9025
 20
215.1177
 30
0.0
 40
119.4091
 50
50.03592
 51
160.9963
  0
ARC
  8
0
 10
395.1003
 20
292.8838
 30
0.0
 40
119.4091
 50
230.036
 51
340.9964
  0
ARC
  8
0
 10
208.8637
 20
172.1387
 30
0.0
 40
113.3705
 50
255.0627
 51
14.93826
  0
ARC
  8
0
 10
88.11977
 20
-14.09908
 30
0.0
 40
119.4091
 50
289.004
 51
39.96486
  0
ARC
  8
0
 10
88.12019
 20
-239.9008
 30
0.0
 40
119.4091
 50
320.0354
 51
70.99628
  0
ARC
  8
0
 10
208.8645
 20
-426.1384
 30
0.0
 40
113.3705
 50
345.062
 51
104.9374
  0
ARC
  8
0
 10
395.1013
 20
-546.8826
 30
0.0
 40
119.4091
 50
19.00391
 51
129.9642
  0
CIRCLE
  8
0
 10
1000
 20
7000
 30
0.0
 40
100
  0
CIRCLE
  8
0
 10
1000
 20
8000
 30
0.0
 40
100
  0
CIRCLE
  8
0
 10
2500
 20
7000
 30
0.0
 40
100
  0
CIRCLE
  8
0
 10
2500
 20
8000
 30
0.0
 40
100
  0
CIRCLE
  8
0
 10
100
 20
100
 30
0.0
 40
126
  0
CIRCLE
  8
0
 10
200
 20
200
 30
0.0
 40
200
  0
CIRCLE
  8
0
 10
300
 20
300
 30
0.0
 40
200
  0
CIRCLE
  8
0
 10
350
 20
350
 30
0.0
 40
200
  0
CIRCLE
  8
0
 10
360
 20
360
 30
0.0
 40
200
  0
CIRCLE
  8
0
 10
370
 20
370
 30
0.0
 40
200
  0
ENDSEC
  0
EOF
